}) The Guardian Legend - Title Screen Nes, Famicom, Dendy Ноты, Аккорды, Табулатуры Коды, Пароли, Секреты, Чит-Коды и Статьи | Retro-Bit

Логотип сайта retro-bit.ru

RANDOM GAME
Титульный экран из игры Felix The Cat / Кот Феликс

Reklama

MENU

CATEGORIES
Nes, Famicom, Dendy [2]
Sega Mega Drive, Sega Genesis [0]
Super Nintendo, Snes, Super Famicom [0]

Reklama


The Guardian Legend - Title Screen

Gtr I (E A D G B E) 
Gtr II (E A D G B E) 

 Q=135
 3/4 4/4
 Gtr I
 |---3----|
 E +E +E Q E E E E H.
|-------------------------------|--------------------|
|-------------------------------|--------------------|
|---------------------------7---|--------------------|
|-7-(7)---(7)-----------------7-|--------------------|
|------------------5------------|-10--9-7------------|
|-------------------------------|--------------------|
|
| Gtr II
| |--3---|
| E E +S +S +S Q E E E E E E E E E
|-------------------------------|--------------------|
|-------------------------------|--------------------|
|-----------------------------7-|--------------------|
|-------7-----(7)-(7)-(7)-------|--7-----------------|
|-------------------------5-----|----10-8--7-----3---|
|-------------------------------|------------0-3---0-|


 3/4 4/4
 |---3----|
 E +E +E Q E E E E Q. E E E
|-------------------------------|-----------------------|
|-------------------------------|-----------------------|
|---------------------------4---|----4-5------------4-5-|
|-7-(7)---(7)-----------------5-|--7--------------7-----|
|------------------5------------|-----------------------|
|-------------------------------|-----------------------|
|
| |--3---|
| E E +S +S +S Q E E E E E +Q E E
|-------------------------------|-----------------------|
|-------------------------------|-----------------------|
|-------------------------------|-----------------------|
|-------7-----(7)-(7)-(7)-----9-|----7-9--10-(10)---7-9-|
|-------------------------5-----|-10--------------------|
|-------------------------------|-----------------------|


 |-3--|
 W +W Q. S S Q E E E
|----------|------------|-------------------------------7-|
|----------|------------|--------------------------8-10---|
|-7--------|-(7)--------|-7-------------------------------|
|----------|------------|------------10---9-10------------|
|----------|------------|---------------------------------|
|----------|------------|---------------------------------|
|
| |-3--| |--3---| |-3-| |-3--|
| W W E E E E E E E E E E E E
|----------|------------|--------------------------3------|
|----------|-10---------|------------------------5----5---|
|----------|------------|---------------5------5--------5-|
|-7--------|------------|----3-5-3-5---------5------------|
|----------|------------|-3-------------------------------|
|----------|------------|---------------------------------|


 E. S H.
|-------------------------------|
|-10----------------------------|
|---------7-7-------------------|
|-------------------------------|
|-------------------------------|
|-------------------------------|
|
| |-3--| |-3--| |-3-| |-3-|
| E E E E E E E E E E E E
|-------------------------------|
|--3----------------------------|
|-----2-----2-------------------|
|-------4------4---4------------|
|----------------5---5---5------|
|----------------------5---5-2--|


 Q. S S Q Q
|--------------------------------|
|-8------------------------------|
|------------10---9-7------------|
|-------------------------10-----|
|--------------------------------|
|--------------------------------|
|
| |-3--| |--3---| |-3-| |-3-|
| E E E E E E E E E E E E
|-----------------------5--8-5---|
|---------------6-----6--------6-|
|------5---5--------5------------|
|----7---7-----------------------|
|-8------------------------------|
|--------------------------------|


 E. S Q. E E E W Q. S S Q E E
|--------------------------|----------|--------------------|
|--------10----------------|----------|-------------9------|
|-7---------7--------7-7-7-|-9--------|-6--------6----6----|
|--------------------------|----------|------9-8-----------|
|--------------------------|----------|--------------------|
|--------------------------|----------|--------------------|
|
| |-3--| |-3--|
| E E E E E E E E E E W W
|-5------------------------|----------|--------------------|
|----7------7--------------|----------|--------------------|
|------7-------7-----------|----------|--------------------|
|----------------7-4-7-7-7-|-9--------|--------------------|
|--------------------------|----------|-9------------------|
|--------------------------|----------|--------------------|


 E. S H. E. S Q E. S Q E. S Q. E E E W
|---------------|---------------------|-11------------------11-|-13----|
|-11--9-9-------|-11--9-9--11---9--9--|-----12-12-----12-14----|-------|
|---------------|---------------------|------------------------|-------|
|---------------|---------------------|------------------------|-------|
|---------------|---------------------|------------------------|-------|
|---------------|---------------------|------------------------|-------|
|
| E. S H. E. S Q E. S Q E. S Q H W
|---------------|---------------------|------------------------|-10----|
|---------------|---------------------|-12---------------------|-------|
|-11--9-9-------|-11--8-8--11---------|-----11-11--------------|-------|
|---------------|--------------11-11--|------------------------|-------|
|---------------|---------------------|------------------------|-------|
|---------------|---------------------|------------------------|-------|


 +H H H E E E E Q Q Q Q E. S H.
|-(13)---------|------------------|-----------------|---------------------|
|--------------|------------------|-----------------|---------------------|
|--------------|------------------|-----------------|---------------------|
|--------------|------------------|-6---5-----------|---------------------|
|--------------|-5----------5-6-8-|---------8---6---|--8--5--5------------|
|--------------|------------------|-----------------|---------------------|
|
| +H E E +Q. E E E E Q Q Q E +E E +S S E +H
|-(10)---------|------------------|-----------------|---------------------|
|--------------|------------------|-----------------|---------------------|
|--------------|------------------|-----------------|---------------------|
|--------------|------------------|---6---5---------|---------------------|
|--------------|---5-(5)------5-6-|-8---------8---6-|-(6)-8-(8)-5-5-(5)---|
|--------------|------------------|-----------------|---------------------|


 +H. Q H E E E E Q Q Q Q W
|----------------|------------------|-----------------|--------------|
|----------------|------------------|-----------------|--------------|
|----------------|------------------|-----------------|--------------|
|----------------|------------------|-6---5-----------|--------------|
|-(5)------------|-5----------5-6-8-|---------8---6---|--8-----------|
|----------------|------------------|-----------------|--------------|
|
| E. S H. E E +Q. E E E E Q Q Q E +E E +H.
|----------------|------------------|-----------------|--------------|
|----------------|------------------|-----------------|--------------|
|----------------|------------------|-----------------|--------------|
|--8-------------|------------------|---6---5---------|--------------|
|-----8-8--------|---5-(5)------5-6-|-8---------8---6-|-(6)-8-(8)----|
|----------------|------------------|-----------------|--------------|


 +H H H E E E E Q Q E Q. W
|-----------------|-------------------|--------------------|--------------|
|-----------------|-------------------|--------------------|--------------|
|-----------------|-------------------|--8---7-------------|--------------|
|-----------------|-7----------7-8-10-|----------10--8-----|--8-----------|
|-(8)-------------|-------------------|--------------------|--------------|
|-----------------|-------------------|--------------------|--------------|
|
| +H +E E Q E E +Q. E E E E Q Q E Q +E E +H.
|-----------------|-------------------|--------------------|--------------|
|-----------------|-------------------|--------------------|--------------|
|-----------------|-------------------|----8---7-----------|--------------|
|-----------------|---7-(7)------7--8-|-10----------10--8--|-(8)-8-(8)----|
|-(8)----(8)------|-------------------|--------------------|--------------|
|-----------------|-------------------|--------------------|--------------|


 W H E E E E Q Q E Q. W
|----------|-----------------------|-------------------|----------------|
|----------|-----------------------|-------------------|----------------|
|----------|-----------------------|-------------------|----------------|
|----------|-------------------7-8-|-10----8---7-------|----------------|
|----------|-10------------10------|-------------8-----|-10-------------|
|----------|-----------------------|-------------------|----------------|
|
| W E E +Q. E E E E Q Q E Q +E E +H.
|----------|-----------------------|-------------------|----------------|
|----------|-----------------------|-------------------|----------------|
|----------|-----------------------|-------------------|----------------|
|----------|---------------------7-|--8-10---8---7-----|----------------|
|----------|----10-(10)-------10---|----------------8--|-(8)-10-(10)----|
|----------|-----------------------|-------------------|----------------|


 E E E E E E E E H E E E E
|----------------------|-----------------------|
|----------------------|-----------------------|
|---8--8---7-----------|-----------------------|
|--------------10--8-7-|-------------------7-8-|
|----------------------|-10------------10------|
|----------------------|-----------------------|
|
| +E E E E E E E E E E +Q. E E E
|----------------------|-----------------------|
|----------------------|-----------------------|
|------8-8---7---------|-----------------------|
|-----------------10-8-|--7------------------7-|
|-(10)-----------------|----10-(10)-------10---|
|----------------------|-----------------------|


 Q Q E Q. W
|----------------------|---------------|
|----------------------|---------------|
|--------------10------|---7-----------|
|-10----8---10---------|---------------|
|----------------------|---------------|
|----------------------|---------------|
|
| E Q Q E Q +E E +H.
|----------------------|---------------|
|----------------------|---------------|
|------------------10--|-(10)-7-(7)----|
|--8-10---8----10------|---------------|
|----------------------|---------------|
|----------------------|---------------|


 Q Q E Q. H E E E E H Q E E H H
|------------------|-----------------|----------------------|------------------|
|-11---10--8-------|-----------------|----------------------|------------------|
|------------10----|-8--------8-7----|--7-------------------|--7---------------|
|------------------|--------------10-|-----------10----8-10-|------------------|
|------------------|-----------------|----------------------|------------------|
|------------------|-----------------|----------------------|------------------|
|
| +Q Q H E Q. Q E E E E +Q. Q E E E +Q. E Q
|------------------|-----------------|----------------------|------------------|
|------------------|-----------------|----------------------|------------------|
|-(7)--------------|---8--------8--7-|----7-(7)-------------|----7-(7)---------|
|------------------|-----------------|-10-----------10----8-|-10---------------|
|------------------|-----------------|----------------------|------------------|
|------------------|-----------------|----------------------|------------------|


 E E E E E E E E H E E E E
|----------------------|--------------------|
|----------------------|--------------------|
|----------------------|--8----------8-7----|
|--------7-7-8-8-10-10-|-----------------10-|
|-10-10----------------|--------------------|
|----------------------|--------------------|
|
| E E E E E E E E E E +Q. E E E
|----------------------|--------------------|
|----------------------|--------------------|
|----------------------|----8-(8)------8--7-|
|----------7-7-8--8-10-|-10-----------------|
|----10-10-------------|--------------------|
|----------------------|--------------------|


 H Q E E W
|----------------------|-------------|
|----------------------|-------------|
|--7-------------------|-------------|
|-----------10----8-10-|--8----------|
|----------------------|-------------|
|----------------------|-------------|
|
| E E +Q. Q E E E +H.
|----------------------|-------------|
|----------------------|-------------|
|----7-(7)-------------|-------------|
|-10-----------10----8-|-10-8-(8)----|
|----------------------|-------------|
|----------------------|-------------|


|--------|
|--------|
|--------|
|--------|
|--------|
|--------|
|
| +H
|--------|
|--------|
|--------|
|-(8)----|
|--------|
|--------|


 
© Retro-Bit.Ru
Похожие Коды, Секреты, Статьи:

Страница The Guardian Legend - Title Screen Nes, Famicom, Dendy Ноты, Аккорды, Табулатуры Коды, Пароли, Секреты, Чит-Коды и Статьи

Если в сборнике нет кодов / паролей к игре, и вы желаете их добавить., перейдите в раздел, нажав кнопку: Добавить. Мы будем вам признательны за наполнение сборника кодов. Желаем вам хорошего настроения и ностальгии. Retro-Bit.ru

If you know cheat codes, secrets, hints, glitches or other level guides, that can help others leveling up, then please: Submit your Cheats. and share your insights and experience with other gamers. Thank you from Retro-Bit.ru

Категория: Nes, Famicom, Dendy | Добавил: EmeraldGP (17.03.2021)
Просмотров: 326 | Теги: Guardian Legend, The Guardian Legend | Рейтинг: 0.0/0
Всего комментариев: 0
avatar
SEARCH

LOGIN

Reklama

GG LIVE

SHARE!

CHAT

VISITS.

STAT.
Яндекс.Метрика
Онлайн всего: 2
Гостей: 2
Пользователей: 0

Сейчас на сайте:

Кто нас сегодня посетил


Reklama


Retro-Bit © 2020-2024

Все права на материал с сайта сохранены и принадлежат их авторам. Любое копирование текста с сайта должно сопровождаться прямой активной ссылкой на наш сайт. Все игры (в том числе и онлайн), эмуляторы, и другие программы и материалы, предоставляются на некоммерческой основе (бесплатно) игры скачанные с этого сайта, носят ознакомительный характер и после ознакомления должны быть удалены. Некоторые материалы доступны на картриджах и других легальных носителях, поэтому могут быть приобретены для частного использования.

%
Сайт управляется системой uCoz